Innocence













Artist: Avril Lavign

Piano Intro: C#m7 - Amaj7 - C#m7 - Amaj7

e|-----------------|---------------|
B|----4-5-4---4-5--|----4-5-4------|
G|----------4------|----------4-6--|
D|-----------------|---------------| x2
A|-4---------------|-0-------------|
E|-----------------|---------------|


Verse1:
C#m7 Amaj7
Waking up I see that everything is ok
C#m7 Amaj7
The first time in my life and now it's so great
C#m7 Amaj7
Slowing down I look around and I am so amazed
C#m7 Amaj7 B
I think about the little things that make life great
Aadd9
I wouldn't change a thing about it
B A (B - C#m)
This is the best feeling


Chorus:
C#m A E B C#m
This innocence is brilliant, I hope that it will stay
A E B C#m A E B
This moment is perfect, please don't go away, I need you now
A B C#m7
And I'll hold on to it, don't you let it pass you by


C#m7 - Amaj7 - C#m7 - Amaj7

e|-----------------|---------------|
B|----4-5-4---4-5--|----4-5-4------|
G|----------4------|----------4-6--|
D|-----------------|---------------| x2
A|-4---------------|-0-------------|
E|-----------------|---------------|


Verse2:
C#m7 Amaj7
I found a place so safe, not a single tear
C#m7 Amaj7
The first time in my life and now it's so clear
C#m7 Amaj7
Feel calm I belong, I'm so happy here
C#m7 Amaj7 B
It's so strong and now I let myself be sincere
Aadd9
I wouldn't change a thing about it
B A (B - C#m)
This is the best feeling


Chorus:
C#m A E B C#m
This innocence is brilliant, I hope that it will stay
A E B C#m A E B
This moment is perfect, please don't go away, I need you now
A B Aadd9
And I'll hold on to it, don't you let it pass you by


Bridge:
Aadd9 E B
It's the state of bliss you think you're dreaming
C#m Aadd9
It's the happiness inside that you're feeling
E B
It's so beautiful it makes you wanna cry

Aadd9 E B
It's the state of bliss you think you're dreaming
C#m Aadd9
It's the happiness inside that you're feeling
E B
It's so beautiful it makes you wanna cry
B (hold) C#m
It's so beautiful it makes you want to cry


Chorus/Outro:
C#m A E B C#m
This innocence is brilliant, it makes you want to cry
C#m A E B C#m
This innocence is brilliance, please don't go away
A E B
Cause I need you now
A B C#m
And I'll hold on to it, don't you let it pass you by

C#m A E B C#m
This innocence is brilliant, I hope that it will stay (It's so beautiful, it's so beautiful)
A E B C#m A E B
This moment is perfect, please don't go away, I need you now (It makes you wanna cry)
A B C#m7
And I'll hold on to it, don't you let it pass you by


C#m7 - Amaj7 - C#m7 - Amaj7 - C#m7 - Amaj7

e|-----------------|---------------|
B|----4-5-4---4-5--|----4-5-4------|
G|----------4------|----------4-6--|
D|-----------------|---------------| x3
A|-4---------------|-0-------------|
E|-----------------|---------------|

C#m7 - Amaj7

e|-----------------0--|
B|----4-5-4---4-5--2--|
G|----------4------1--|
D|-----------------2--|
A|-4---------------0--|
E|-----------------x--|


End on Amaj7

Untuk download lagunya disini

Komentar